ISO-10303-21;
HEADER;

/* File generated by Alibre Version V23 */

FILE_DESCRIPTION(('HOOPS Exchange Step'),'2;1');

FILE_NAME('C:\\Users\\johnd\\AppData\\Local\\Temp\\Alibre Design\\export-CA0F75D6-50B3-46BC-9A3F-A775765B4213.stp',
'2021-10-12T22:08:53+17:00',
('john'),
('Alibre'),
'HOOPS Exchange 2021.0',
'Alibre',
'Unknown authorisation');

FILE_SCHEMA( ('AP242_MANAGED_MODEL_BASED_3D_ENGINEERING_MIM_LF {1 0 10303 442 1 1 4 }') );

ENDSEC;

DATA;
#3=(NAMED_UNIT(*)PLANE_ANGLE_UNIT()SI_UNIT($,.RADIAN.));
#4=PLANE_ANGLE_MEASURE_WITH_UNIT(PLANE_ANGLE_MEASURE(0.0174532925),#3);
#5=(CONVERSION_BASED_UNIT('DEGREE',#4)NAMED_UNIT(#6)PLANE_ANGLE_UNIT());
#6=DIMENSIONAL_EXPONENTS(0.,0.,0.,0.,0.,0.,0.);
#7=(NAMED_UNIT(*)SI_UNIT($,.STERADIAN.)SOLID_ANGLE_UNIT());
#8=(LENGTH_UNIT()NAMED_UNIT(*)SI_UNIT(.MILLI.,.METRE.));
#9=UNCERTAINTY_MEASURE_WITH_UNIT(LENGTH_MEASURE(1.000000E-06),#8,'DISTANCE_ACCURACY_VALUE','Maximum Tolerance applied to model');
#10=(GEOMETRIC_REPRESENTATION_CONTEXT(3)GLOBAL_UNCERTAINTY_ASSIGNED_CONTEXT((#9))GLOBAL_UNIT_ASSIGNED_CONTEXT((#8,#5,#7))REPRESENTATION_CONTEXT('','TripodCrank'));
#12=CARTESIAN_POINT('',(0.,0.,0.));
#13=DIRECTION('',(0.,0.,1.));
#14=DIRECTION('',(1.,0.,0.));
#15=AXIS2_PLACEMENT_3D('',#12,#13,#14);
#27=CARTESIAN_POINT('',(-38.234505653,2.6,-43.471118518));
#28=DIRECTION('',(0.,1.,0.));
#29=DIRECTION('',(-1.,0.,0.));
#30=AXIS2_PLACEMENT_3D('',#27,#28,#29);
#31=PLANE('',#30);
#32=CARTESIAN_POINT('',(-37.328835964,2.6,13.820912838));
#33=VERTEX_POINT('',#32);
#34=CARTESIAN_POINT('',(-35.828835964,2.6,13.820912838));
#35=DIRECTION('',(0.,-1.,0.));
#36=DIRECTION('',(1.,0.,0.));
#37=AXIS2_PLACEMENT_3D('',#34,#35,#36);
#38=CIRCLE('',#37,1.5);
#39=EDGE_CURVE('',#33,#33,#38,.T.);
#40=ORIENTED_EDGE('',*,*,#39,.F.);
#41=EDGE_LOOP('',(#40));
#42=FACE_BOUND('',#41,.T.);
#43=CARTESIAN_POINT('',(-36.076865481,2.6,16.155603749));
#44=VERTEX_POINT('',#43);
#45=CARTESIAN_POINT('',(-32.234505653,2.6,16.155603749));
#46=VERTEX_POINT('',#45);
#47=CARTESIAN_POINT('',(-35.880562367,2.6,16.155603749));
#48=DIRECTION('',(1.,0.,-0.));
#49=VECTOR('',#48,38.423598275);
#50=LINE('',#47,#49);
#51=EDGE_CURVE('',#44,#46,#50,.T.);
#52=ORIENTED_EDGE('',*,*,#51,.F.);
#53=CARTESIAN_POINT('',(-38.276865481,2.6,13.955603749));
#54=VERTEX_POINT('',#53);
#55=CARTESIAN_POINT('',(-36.076865481,2.6,13.955603749));
#56=DIRECTION('',(-0.,1.,0.));
#57=DIRECTION('',(1.,0.,0.));
#58=AXIS2_PLACEMENT_3D('',#55,#56,#57);
#59=CIRCLE('',#58,2.2);
#60=EDGE_CURVE('',#54,#44,#59,.T.);
#61=ORIENTED_EDGE('',*,*,#60,.F.);
#62=CARTESIAN_POINT('',(-36.86817763,2.6,11.902843392));
#63=VERTEX_POINT('',#62);
#64=CARTESIAN_POINT('',(-36.076865481,2.6,13.955603749));
#65=DIRECTION('',(-0.,1.,0.));
#66=DIRECTION('',(1.,0.,0.));
#67=AXIS2_PLACEMENT_3D('',#64,#65,#66);
#68=CIRCLE('',#67,2.2);
#69=EDGE_CURVE('',#63,#54,#68,.T.);
#70=ORIENTED_EDGE('',*,*,#69,.F.);
#71=CARTESIAN_POINT('',(-32.234505653,2.6,10.198889821));
#72=VERTEX_POINT('',#71);
#73=CARTESIAN_POINT('',(-138.66128086,2.6,49.335515074));
#74=DIRECTION('',(-0.938552462,0.,0.345136606));
#75=VECTOR('',#74,49.370409923);
#76=LINE('',#73,#75);
#77=EDGE_CURVE('',#72,#63,#76,.T.);
#78=ORIENTED_EDGE('',*,*,#77,.F.);
#79=CARTESIAN_POINT('',(-32.234505653,2.6,493.22896487));
#80=DIRECTION('',(0.,0.,1.));
#81=VECTOR('',#80,59.567139281);
#82=LINE('',#79,#81);
#83=EDGE_CURVE('',#72,#46,#82,.T.);
#84=ORIENTED_EDGE('',*,*,#83,.T.);
#85=EDGE_LOOP('',(#52,#61,#70,#78,#84));
#86=FACE_BOUND('',#85,.T.);
#87=ADVANCED_FACE('',(#42,#86),#31,.F.);
#88=CARTESIAN_POINT('',(-38.234505653,-2.6,-43.471118518));
#89=DIRECTION('',(0.,-1.,0.));
#90=DIRECTION('',(1.,0.,0.));
#91=AXIS2_PLACEMENT_3D('',#88,#89,#90);
#92=PLANE('',#91);
#93=CARTESIAN_POINT('',(-37.328835964,-2.6,13.820912838));
#94=VERTEX_POINT('',#93);
#95=CARTESIAN_POINT('',(-35.828835964,-2.6,13.820912838));
#96=DIRECTION('',(-0.,1.,0.));
#97=DIRECTION('',(1.,0.,0.));
#98=AXIS2_PLACEMENT_3D('',#95,#96,#97);
#99=CIRCLE('',#98,1.5);
#100=EDGE_CURVE('',#94,#94,#99,.T.);
#101=ORIENTED_EDGE('',*,*,#100,.F.);
#102=EDGE_LOOP('',(#101));
#103=FACE_BOUND('',#102,.T.);
#104=CARTESIAN_POINT('',(-32.234505653,-2.6,16.155603749));
#105=VERTEX_POINT('',#104);
#106=CARTESIAN_POINT('',(-36.076865481,-2.6,16.155603749));
#107=VERTEX_POINT('',#106);
#108=CARTESIAN_POINT('',(2.543035908,-2.6,16.155603749));
#109=DIRECTION('',(-1.,0.,0.));
#110=VECTOR('',#109,38.423598275);
#111=LINE('',#108,#110);
#112=EDGE_CURVE('',#105,#107,#111,.T.);
#113=ORIENTED_EDGE('',*,*,#112,.F.);
#114=CARTESIAN_POINT('',(-32.234505653,-2.6,10.198889821));
#115=VERTEX_POINT('',#114);
#116=CARTESIAN_POINT('',(-32.234505653,-2.6,493.22896487));
#117=DIRECTION('',(0.,0.,1.));
#118=VECTOR('',#117,59.567139281);
#119=LINE('',#116,#118);
#120=EDGE_CURVE('',#115,#105,#119,.T.);
#121=ORIENTED_EDGE('',*,*,#120,.F.);
#122=CARTESIAN_POINT('',(-36.86817763,-2.6,11.902843392));
#123=VERTEX_POINT('',#122);
#124=CARTESIAN_POINT('',(-184.998000626,-2.6,66.375050787));
#125=DIRECTION('',(0.938552462,0.,-0.345136606));
#126=VECTOR('',#125,49.370409923);
#127=LINE('',#124,#126);
#128=EDGE_CURVE('',#123,#115,#127,.T.);
#129=ORIENTED_EDGE('',*,*,#128,.F.);
#130=CARTESIAN_POINT('',(-38.276865481,-2.6,13.955603749));
#131=VERTEX_POINT('',#130);
#132=CARTESIAN_POINT('',(-36.076865481,-2.6,13.955603749));
#133=DIRECTION('',(0.,-1.,0.));
#134=DIRECTION('',(1.,0.,0.));
#135=AXIS2_PLACEMENT_3D('',#132,#133,#134);
#136=CIRCLE('',#135,2.2);
#137=EDGE_CURVE('',#131,#123,#136,.T.);
#138=ORIENTED_EDGE('',*,*,#137,.F.);
#139=CARTESIAN_POINT('',(-36.076865481,-2.6,13.955603749));
#140=DIRECTION('',(0.,-1.,0.));
#141=DIRECTION('',(1.,0.,0.));
#142=AXIS2_PLACEMENT_3D('',#139,#140,#141);
#143=CIRCLE('',#142,2.2);
#144=EDGE_CURVE('',#107,#131,#143,.T.);
#145=ORIENTED_EDGE('',*,*,#144,.F.);
#146=EDGE_LOOP('',(#113,#121,#129,#138,#145));
#147=FACE_BOUND('',#146,.T.);
#148=ADVANCED_FACE('',(#103,#147),#92,.F.);
#149=CARTESIAN_POINT('',(-32.234505653,0.,-43.471118518));
#150=DIRECTION('',(1.,0.,0.));
#151=DIRECTION('',(0.,1.,0.));
#152=AXIS2_PLACEMENT_3D('',#149,#150,#151);
#153=PLANE('',#152);
#154=CARTESIAN_POINT('',(-32.234505653,46.25,16.155603749));
#155=DIRECTION('',(0.,-1.,0.));
#156=VECTOR('',#155,52.);
#157=LINE('',#154,#156);
#158=EDGE_CURVE('',#46,#105,#157,.T.);
#159=ORIENTED_EDGE('',*,*,#158,.F.);
#160=ORIENTED_EDGE('',*,*,#83,.F.);
#161=CARTESIAN_POINT('',(-32.234505653,-5.75,10.198889821));
#162=DIRECTION('',(0.,1.,0.));
#163=VECTOR('',#162,52.);
#164=LINE('',#161,#163);
#165=EDGE_CURVE('',#115,#72,#164,.T.);
#166=ORIENTED_EDGE('',*,*,#165,.F.);
#167=ORIENTED_EDGE('',*,*,#120,.T.);
#168=EDGE_LOOP('',(#159,#160,#166,#167));
#169=FACE_BOUND('',#168,.T.);
#170=ADVANCED_FACE('',(#169),#153,.F.);
#171=CARTESIAN_POINT('',(-20.684088815,-4.5,5.951421696));
#172=DIRECTION('',(-0.345136606,0.,-0.938552462));
#173=DIRECTION('',(-0.938552462,0.,0.345136606));
#174=AXIS2_PLACEMENT_3D('',#171,#172,#173);
#175=PLANE('',#174);
#176=ORIENTED_EDGE('',*,*,#128,.T.);
#177=ORIENTED_EDGE('',*,*,#165,.T.);
#178=ORIENTED_EDGE('',*,*,#77,.T.);
#179=CARTESIAN_POINT('',(-36.86817763,4.5,11.902843392));
#180=VERTEX_POINT('',#179);
#181=CARTESIAN_POINT('',(-36.86817763,66.5,11.902843392));
#182=DIRECTION('',(0.,1.,0.));
#183=VECTOR('',#182,19.);
#184=LINE('',#181,#183);
#185=EDGE_CURVE('',#63,#180,#184,.T.);
#186=ORIENTED_EDGE('',*,*,#185,.T.);
#187=CARTESIAN_POINT('',(-4.5,4.5,-0.));
#188=VERTEX_POINT('',#187);
#189=CARTESIAN_POINT('',(-328.1817763,4.5,119.028433923));
#190=DIRECTION('',(0.938552462,0.,-0.345136606));
#191=VECTOR('',#190,344.873397627);
#192=LINE('',#189,#191);
#193=EDGE_CURVE('',#180,#188,#192,.T.);
#194=ORIENTED_EDGE('',*,*,#193,.T.);
#195=CARTESIAN_POINT('',(-4.5,-4.5,-0.));
#196=VERTEX_POINT('',#195);
#197=CARTESIAN_POINT('',(-4.5,-4.5,-0.));
#198=DIRECTION('',(0.,1.,0.));
#199=VECTOR('',#198,90.);
#200=LINE('',#197,#199);
#201=EDGE_CURVE('',#196,#188,#200,.T.);
#202=ORIENTED_EDGE('',*,*,#201,.F.);
#203=CARTESIAN_POINT('',(-36.86817763,-4.5,11.902843392));
#204=VERTEX_POINT('',#203);
#205=CARTESIAN_POINT('',(-4.5,-4.5,-0.));
#206=DIRECTION('',(-0.938552462,0.,0.345136606));
#207=VECTOR('',#206,344.873397627);
#208=LINE('',#205,#207);
#209=EDGE_CURVE('',#196,#204,#208,.T.);
#210=ORIENTED_EDGE('',*,*,#209,.T.);
#211=CARTESIAN_POINT('',(-36.86817763,-4.5,11.902843392));
#212=DIRECTION('',(0.,1.,0.));
#213=VECTOR('',#212,19.);
#214=LINE('',#211,#213);
#215=EDGE_CURVE('',#204,#123,#214,.T.);
#216=ORIENTED_EDGE('',*,*,#215,.T.);
#217=EDGE_LOOP('',(#176,#177,#178,#186,#194,#202,#210,#216));
#218=FACE_BOUND('',#217,.T.);
#219=ADVANCED_FACE('',(#218),#175,.T.);
#220=CARTESIAN_POINT('',(-36.076865481,-4.5,13.955603749));
#221=DIRECTION('',(-0.,1.,0.));
#222=DIRECTION('',(1.,0.,0.));
#223=AXIS2_PLACEMENT_3D('',#220,#221,#222);
#224=CYLINDRICAL_SURFACE('',#223,2.2);
#225=CARTESIAN_POINT('',(-38.276865481,4.5,13.955603749));
#226=VERTEX_POINT('',#225);
#227=CARTESIAN_POINT('',(-38.276865481,4.5,13.955603749));
#228=DIRECTION('',(-0.,-1.,-0.));
#229=VECTOR('',#228,1.9);
#230=LINE('',#227,#229);
#231=EDGE_CURVE('',#226,#54,#230,.T.);
#232=ORIENTED_EDGE('',*,*,#231,.T.);
#233=ORIENTED_EDGE('',*,*,#60,.T.);
#234=CARTESIAN_POINT('',(-36.076865481,4.5,16.155603749));
#235=VERTEX_POINT('',#234);
#236=CARTESIAN_POINT('',(-36.076865481,66.5,16.155603749));
#237=DIRECTION('',(0.,1.,0.));
#238=VECTOR('',#237,19.);
#239=LINE('',#236,#238);
#240=EDGE_CURVE('',#44,#235,#239,.T.);
#241=ORIENTED_EDGE('',*,*,#240,.T.);
#242=CARTESIAN_POINT('',(-36.076865481,4.5,13.955603749));
#243=DIRECTION('',(0.,-1.,0.));
#244=DIRECTION('',(1.,0.,0.));
#245=AXIS2_PLACEMENT_3D('',#242,#243,#244);
#246=CIRCLE('',#245,2.2);
#247=EDGE_CURVE('',#235,#226,#246,.T.);
#248=ORIENTED_EDGE('',*,*,#247,.T.);
#249=EDGE_LOOP('',(#232,#233,#241,#248));
#250=FACE_BOUND('',#249,.T.);
#251=ADVANCED_FACE('',(#250),#224,.T.);
#252=CARTESIAN_POINT('',(-36.076865481,-4.5,13.955603749));
#253=DIRECTION('',(-0.,1.,0.));
#254=DIRECTION('',(1.,0.,0.));
#255=AXIS2_PLACEMENT_3D('',#252,#253,#254);
#256=CYLINDRICAL_SURFACE('',#255,2.2);
#257=CARTESIAN_POINT('',(-38.276865481,-4.5,13.955603749));
#258=VERTEX_POINT('',#257);
#259=CARTESIAN_POINT('',(-38.276865481,-2.6,13.955603749));
#260=DIRECTION('',(-0.,-1.,-0.));
#261=VECTOR('',#260,1.9);
#262=LINE('',#259,#261);
#263=EDGE_CURVE('',#131,#258,#262,.T.);
#264=ORIENTED_EDGE('',*,*,#263,.T.);
#265=CARTESIAN_POINT('',(-36.076865481,-4.5,16.155603749));
#266=VERTEX_POINT('',#265);
#267=CARTESIAN_POINT('',(-36.076865481,-4.5,13.955603749));
#268=DIRECTION('',(-0.,1.,0.));
#269=DIRECTION('',(1.,0.,0.));
#270=AXIS2_PLACEMENT_3D('',#267,#268,#269);
#271=CIRCLE('',#270,2.2);
#272=EDGE_CURVE('',#258,#266,#271,.T.);
#273=ORIENTED_EDGE('',*,*,#272,.T.);
#274=CARTESIAN_POINT('',(-36.076865481,-4.5,16.155603749));
#275=DIRECTION('',(0.,1.,0.));
#276=VECTOR('',#275,19.);
#277=LINE('',#274,#276);
#278=EDGE_CURVE('',#266,#107,#277,.T.);
#279=ORIENTED_EDGE('',*,*,#278,.T.);
#280=ORIENTED_EDGE('',*,*,#144,.T.);
#281=EDGE_LOOP('',(#264,#273,#279,#280));
#282=FACE_BOUND('',#281,.T.);
#283=ADVANCED_FACE('',(#282),#256,.T.);
#284=CARTESIAN_POINT('',(-35.828835964,-50.364872918,13.820912838));
#285=DIRECTION('',(-0.,1.,0.));
#286=DIRECTION('',(1.,0.,0.));
#287=AXIS2_PLACEMENT_3D('',#284,#285,#286);
#288=CYLINDRICAL_SURFACE('',#287,1.5);
#289=CARTESIAN_POINT('',(-37.328835964,-4.5,13.820912838));
#290=VERTEX_POINT('',#289);
#291=CARTESIAN_POINT('',(-37.328835964,-2.6,13.820912838));
#292=DIRECTION('',(-0.,-1.,-0.));
#293=VECTOR('',#292,1.9);
#294=LINE('',#291,#293);
#295=EDGE_CURVE('',#94,#290,#294,.T.);
#296=ORIENTED_EDGE('',*,*,#295,.F.);
#297=ORIENTED_EDGE('',*,*,#100,.T.);
#298=ORIENTED_EDGE('',*,*,#295,.T.);
#299=CARTESIAN_POINT('',(-35.828835964,-4.5,13.820912838));
#300=DIRECTION('',(0.,1.,-0.));
#301=DIRECTION('',(1.,0.,0.));
#302=AXIS2_PLACEMENT_3D('',#299,#300,#301);
#303=CIRCLE('',#302,1.5);
#304=EDGE_CURVE('',#290,#290,#303,.T.);
#305=ORIENTED_EDGE('',*,*,#304,.F.);
#306=EDGE_LOOP('',(#296,#297,#298,#305));
#307=FACE_BOUND('',#306,.T.);
#308=ADVANCED_FACE('',(#307),#288,.F.);
#309=CARTESIAN_POINT('',(-35.828835964,-50.364872918,13.820912838));
#310=DIRECTION('',(-0.,1.,0.));
#311=DIRECTION('',(1.,0.,0.));
#312=AXIS2_PLACEMENT_3D('',#309,#310,#311);
#313=CYLINDRICAL_SURFACE('',#312,1.5);
#314=CARTESIAN_POINT('',(-37.328835964,4.5,13.820912838));
#315=VERTEX_POINT('',#314);
#316=CARTESIAN_POINT('',(-37.328835964,4.5,13.820912838));
#317=DIRECTION('',(-0.,-1.,-0.));
#318=VECTOR('',#317,1.9);
#319=LINE('',#316,#318);
#320=EDGE_CURVE('',#315,#33,#319,.T.);
#321=ORIENTED_EDGE('',*,*,#320,.F.);
#322=CARTESIAN_POINT('',(-35.828835964,4.5,13.820912838));
#323=DIRECTION('',(0.,-1.,0.));
#324=DIRECTION('',(1.,0.,0.));
#325=AXIS2_PLACEMENT_3D('',#322,#323,#324);
#326=CIRCLE('',#325,1.5);
#327=EDGE_CURVE('',#315,#315,#326,.T.);
#328=ORIENTED_EDGE('',*,*,#327,.F.);
#329=ORIENTED_EDGE('',*,*,#320,.T.);
#330=ORIENTED_EDGE('',*,*,#39,.T.);
#331=EDGE_LOOP('',(#321,#328,#329,#330));
#332=FACE_BOUND('',#331,.T.);
#333=ADVANCED_FACE('',(#332),#313,.F.);
#334=CARTESIAN_POINT('',(0.,0.,-17.));
#335=DIRECTION('',(0.,0.,1.));
#336=DIRECTION('',(-1.,0.,0.));
#337=AXIS2_PLACEMENT_3D('',#334,#335,#336);
#338=CYLINDRICAL_SURFACE('',#337,1.);
#339=CARTESIAN_POINT('',(1.,-0.,-12.));
#340=VERTEX_POINT('',#339);
#341=CARTESIAN_POINT('',(1.,-0.,-17.));
#342=VERTEX_POINT('',#341);
#343=CARTESIAN_POINT('',(1.,-0.,-12.));
#344=DIRECTION('',(-0.,-0.,-1.));
#345=VECTOR('',#344,5.);
#346=LINE('',#343,#345);
#347=EDGE_CURVE('',#340,#342,#346,.T.);
#348=ORIENTED_EDGE('',*,*,#347,.F.);
#349=CARTESIAN_POINT('',(-1.,0.,-12.));
#350=VERTEX_POINT('',#349);
#351=CARTESIAN_POINT('',(0.,0.,-12.));
#352=DIRECTION('',(0.,0.,-1.));
#353=DIRECTION('',(-1.,0.,0.));
#354=AXIS2_PLACEMENT_3D('',#351,#352,#353);
#355=CIRCLE('',#354,1.);
#356=EDGE_CURVE('',#350,#340,#355,.T.);
#357=ORIENTED_EDGE('',*,*,#356,.F.);
#358=CARTESIAN_POINT('',(0.,0.,-12.));
#359=DIRECTION('',(0.,0.,-1.));
#360=DIRECTION('',(-1.,0.,0.));
#361=AXIS2_PLACEMENT_3D('',#358,#359,#360);
#362=CIRCLE('',#361,1.);
#363=EDGE_CURVE('',#340,#350,#362,.T.);
#364=ORIENTED_EDGE('',*,*,#363,.F.);
#365=ORIENTED_EDGE('',*,*,#347,.T.);
#366=CARTESIAN_POINT('',(-1.,0.,-17.));
#367=VERTEX_POINT('',#366);
#368=CARTESIAN_POINT('',(0.,0.,-17.));
#369=DIRECTION('',(0.,0.,1.));
#370=DIRECTION('',(-1.,0.,0.));
#371=AXIS2_PLACEMENT_3D('',#368,#369,#370);
#372=CIRCLE('',#371,1.);
#373=EDGE_CURVE('',#367,#342,#372,.T.);
#374=ORIENTED_EDGE('',*,*,#373,.F.);
#375=CARTESIAN_POINT('',(0.,0.,-17.));
#376=DIRECTION('',(0.,0.,1.));
#377=DIRECTION('',(-1.,0.,0.));
#378=AXIS2_PLACEMENT_3D('',#375,#376,#377);
#379=CIRCLE('',#378,1.);
#380=EDGE_CURVE('',#342,#367,#379,.T.);
#381=ORIENTED_EDGE('',*,*,#380,.F.);
#382=EDGE_LOOP('',(#348,#357,#364,#365,#374,#381));
#383=FACE_BOUND('',#382,.T.);
#384=ADVANCED_FACE('',(#383),#338,.F.);
#385=CARTESIAN_POINT('',(0.,0.,-12.));
#386=DIRECTION('',(0.,0.,-1.));
#387=DIRECTION('',(-1.,0.,0.));
#388=AXIS2_PLACEMENT_3D('',#385,#386,#387);
#389=PLANE('',#388);
#390=ORIENTED_EDGE('',*,*,#356,.T.);
#391=ORIENTED_EDGE('',*,*,#363,.T.);
#392=EDGE_LOOP('',(#390,#391));
#393=FACE_BOUND('',#392,.T.);
#394=ADVANCED_FACE('',(#393),#389,.T.);
#395=CARTESIAN_POINT('',(0.,0.,0.));
#396=DIRECTION('',(0.,0.,-1.));
#397=DIRECTION('',(-1.,0.,0.));
#398=AXIS2_PLACEMENT_3D('',#395,#396,#397);
#399=CYLINDRICAL_SURFACE('',#398,3.5);
#400=CARTESIAN_POINT('',(3.5,0.,-17.));
#401=VERTEX_POINT('',#400);
#402=CARTESIAN_POINT('',(3.5,0.,0.));
#403=VERTEX_POINT('',#402);
#404=CARTESIAN_POINT('',(3.5,0.,-17.));
#405=DIRECTION('',(-0.,-0.,1.));
#406=VECTOR('',#405,17.);
#407=LINE('',#404,#406);
#408=EDGE_CURVE('',#401,#403,#407,.T.);
#409=ORIENTED_EDGE('',*,*,#408,.T.);
#410=CARTESIAN_POINT('',(-3.5,0.,0.));
#411=VERTEX_POINT('',#410);
#412=CARTESIAN_POINT('',(0.,0.,0.));
#413=DIRECTION('',(0.,0.,1.));
#414=DIRECTION('',(-1.,0.,0.));
#415=AXIS2_PLACEMENT_3D('',#412,#413,#414);
#416=CIRCLE('',#415,3.5);
#417=EDGE_CURVE('',#411,#403,#416,.T.);
#418=ORIENTED_EDGE('',*,*,#417,.F.);
#419=CARTESIAN_POINT('',(0.,0.,0.));
#420=DIRECTION('',(0.,0.,1.));
#421=DIRECTION('',(-1.,0.,0.));
#422=AXIS2_PLACEMENT_3D('',#419,#420,#421);
#423=CIRCLE('',#422,3.5);
#424=EDGE_CURVE('',#403,#411,#423,.T.);
#425=ORIENTED_EDGE('',*,*,#424,.F.);
#426=ORIENTED_EDGE('',*,*,#408,.F.);
#427=CARTESIAN_POINT('',(-3.5,0.,-17.));
#428=VERTEX_POINT('',#427);
#429=CARTESIAN_POINT('',(0.,0.,-17.));
#430=DIRECTION('',(0.,0.,1.));
#431=DIRECTION('',(-1.,0.,0.));
#432=AXIS2_PLACEMENT_3D('',#429,#430,#431);
#433=CIRCLE('',#432,3.5);
#434=EDGE_CURVE('',#401,#428,#433,.T.);
#435=ORIENTED_EDGE('',*,*,#434,.T.);
#436=CARTESIAN_POINT('',(0.,0.,-17.));
#437=DIRECTION('',(0.,0.,1.));
#438=DIRECTION('',(-1.,0.,0.));
#439=AXIS2_PLACEMENT_3D('',#436,#437,#438);
#440=CIRCLE('',#439,3.5);
#441=EDGE_CURVE('',#428,#401,#440,.T.);
#442=ORIENTED_EDGE('',*,*,#441,.T.);
#443=EDGE_LOOP('',(#409,#418,#425,#426,#435,#442));
#444=FACE_BOUND('',#443,.T.);
#445=ADVANCED_FACE('',(#444),#399,.T.);
#446=CARTESIAN_POINT('',(0.,0.,-17.));
#447=DIRECTION('',(0.,0.,-1.));
#448=DIRECTION('',(-1.,0.,0.));
#449=AXIS2_PLACEMENT_3D('',#446,#447,#448);
#450=PLANE('',#449);
#451=ORIENTED_EDGE('',*,*,#373,.T.);
#452=ORIENTED_EDGE('',*,*,#380,.T.);
#453=EDGE_LOOP('',(#451,#452));
#454=FACE_BOUND('',#453,.T.);
#455=ORIENTED_EDGE('',*,*,#434,.F.);
#456=ORIENTED_EDGE('',*,*,#441,.F.);
#457=EDGE_LOOP('',(#455,#456));
#458=FACE_BOUND('',#457,.T.);
#459=ADVANCED_FACE('',(#454,#458),#450,.T.);
#460=CARTESIAN_POINT('',(-20.83247134,-4.5,8.695448988));
#461=DIRECTION('',(-0.,1.,-0.));
#462=DIRECTION('',(0.,0.,1.));
#463=AXIS2_PLACEMENT_3D('',#460,#461,#462);
#464=PLANE('',#463);
#465=ORIENTED_EDGE('',*,*,#304,.T.);
#466=EDGE_LOOP('',(#465));
#467=FACE_BOUND('',#466,.T.);
#468=ORIENTED_EDGE('',*,*,#209,.F.);
#469=CARTESIAN_POINT('',(0.,-4.5,0.));
#470=VERTEX_POINT('',#469);
#471=CARTESIAN_POINT('',(-4.5,-4.5,0.));
#472=DIRECTION('',(1.,0.,-0.));
#473=VECTOR('',#472,45.);
#474=LINE('',#471,#473);
#475=EDGE_CURVE('',#196,#470,#474,.T.);
#476=ORIENTED_EDGE('',*,*,#475,.T.);
#477=CARTESIAN_POINT('',(0.,-4.5,4.2));
#478=VERTEX_POINT('',#477);
#479=CARTESIAN_POINT('',(0.,-4.5,42.));
#480=DIRECTION('',(0.,0.,-1.));
#481=VECTOR('',#480,42.);
#482=LINE('',#479,#481);
#483=EDGE_CURVE('',#478,#470,#482,.T.);
#484=ORIENTED_EDGE('',*,*,#483,.F.);
#485=CARTESIAN_POINT('',(-4.5,-4.5,4.2));
#486=VERTEX_POINT('',#485);
#487=CARTESIAN_POINT('',(40.5,-4.5,4.2));
#488=DIRECTION('',(-1.,0.,0.));
#489=VECTOR('',#488,45.);
#490=LINE('',#487,#489);
#491=EDGE_CURVE('',#478,#486,#490,.T.);
#492=ORIENTED_EDGE('',*,*,#491,.T.);
#493=CARTESIAN_POINT('',(-27.546858495,-4.5,15.18295291));
#494=VERTEX_POINT('',#493);
#495=CARTESIAN_POINT('',(-27.546858495,-4.5,15.18295291));
#496=DIRECTION('',(0.902734916,0.,-0.430197247));
#497=VECTOR('',#496,255.300399752);
#498=LINE('',#495,#497);
#499=EDGE_CURVE('',#494,#486,#498,.T.);
#500=ORIENTED_EDGE('',*,*,#499,.F.);
#501=CARTESIAN_POINT('',(-31.848830964,-4.5,16.155603749));
#502=VERTEX_POINT('',#501);
#503=CARTESIAN_POINT('',(-31.848830964,-4.5,6.155603749));
#504=DIRECTION('',(-0.,1.,0.));
#505=DIRECTION('',(1.,0.,0.));
#506=AXIS2_PLACEMENT_3D('',#503,#504,#505);
#507=CIRCLE('',#506,10.);
#508=EDGE_CURVE('',#502,#494,#507,.T.);
#509=ORIENTED_EDGE('',*,*,#508,.F.);
#510=CARTESIAN_POINT('',(-36.076865481,-4.5,16.155603749));
#511=DIRECTION('',(1.,0.,-0.));
#512=VECTOR('',#511,42.280345166);
#513=LINE('',#510,#512);
#514=EDGE_CURVE('',#266,#502,#513,.T.);
#515=ORIENTED_EDGE('',*,*,#514,.F.);
#516=ORIENTED_EDGE('',*,*,#272,.F.);
#517=CARTESIAN_POINT('',(-36.076865481,-4.5,13.955603749));
#518=DIRECTION('',(-0.,1.,0.));
#519=DIRECTION('',(1.,0.,0.));
#520=AXIS2_PLACEMENT_3D('',#517,#518,#519);
#521=CIRCLE('',#520,2.2);
#522=EDGE_CURVE('',#204,#258,#521,.T.);
#523=ORIENTED_EDGE('',*,*,#522,.F.);
#524=EDGE_LOOP('',(#468,#476,#484,#492,#500,#509,#515,#516,#523));
#525=FACE_BOUND('',#524,.T.);
#526=ADVANCED_FACE('',(#467,#525),#464,.F.);
#527=CARTESIAN_POINT('',(-20.83247134,4.5,8.695448988));
#528=DIRECTION('',(-0.,1.,-0.));
#529=DIRECTION('',(0.,0.,1.));
#530=AXIS2_PLACEMENT_3D('',#527,#528,#529);
#531=PLANE('',#530);
#532=ORIENTED_EDGE('',*,*,#327,.T.);
#533=EDGE_LOOP('',(#532));
#534=FACE_BOUND('',#533,.T.);
#535=CARTESIAN_POINT('',(-4.5,4.5,4.2));
#536=VERTEX_POINT('',#535);
#537=CARTESIAN_POINT('',(-27.546858495,4.5,15.18295291));
#538=VERTEX_POINT('',#537);
#539=CARTESIAN_POINT('',(202.921726459,4.5,-94.646576192));
#540=DIRECTION('',(-0.902734916,0.,0.430197247));
#541=VECTOR('',#540,255.300399752);
#542=LINE('',#539,#541);
#543=EDGE_CURVE('',#536,#538,#542,.T.);
#544=ORIENTED_EDGE('',*,*,#543,.F.);
#545=CARTESIAN_POINT('',(0.,4.5,4.2));
#546=VERTEX_POINT('',#545);
#547=CARTESIAN_POINT('',(-45.,4.5,4.2));
#548=DIRECTION('',(1.,0.,-0.));
#549=VECTOR('',#548,45.);
#550=LINE('',#547,#549);
#551=EDGE_CURVE('',#536,#546,#550,.T.);
#552=ORIENTED_EDGE('',*,*,#551,.T.);
#553=CARTESIAN_POINT('',(-0.,4.5,0.));
#554=VERTEX_POINT('',#553);
#555=CARTESIAN_POINT('',(0.,4.5,-18.9));
#556=DIRECTION('',(0.,0.,1.));
#557=VECTOR('',#556,42.);
#558=LINE('',#555,#557);
#559=EDGE_CURVE('',#554,#546,#558,.T.);
#560=ORIENTED_EDGE('',*,*,#559,.F.);
#561=CARTESIAN_POINT('',(-0.,4.5,0.));
#562=DIRECTION('',(-1.,0.,0.));
#563=VECTOR('',#562,45.);
#564=LINE('',#561,#563);
#565=EDGE_CURVE('',#554,#188,#564,.T.);
#566=ORIENTED_EDGE('',*,*,#565,.T.);
#567=ORIENTED_EDGE('',*,*,#193,.F.);
#568=CARTESIAN_POINT('',(-36.076865481,4.5,13.955603749));
#569=DIRECTION('',(0.,-1.,0.));
#570=DIRECTION('',(1.,0.,0.));
#571=AXIS2_PLACEMENT_3D('',#568,#569,#570);
#572=CIRCLE('',#571,2.2);
#573=EDGE_CURVE('',#226,#180,#572,.T.);
#574=ORIENTED_EDGE('',*,*,#573,.F.);
#575=ORIENTED_EDGE('',*,*,#247,.F.);
#576=CARTESIAN_POINT('',(-31.848830964,4.5,16.155603749));
#577=VERTEX_POINT('',#576);
#578=CARTESIAN_POINT('',(6.203479685,4.5,16.155603749));
#579=DIRECTION('',(-1.,0.,0.));
#580=VECTOR('',#579,42.280345166);
#581=LINE('',#578,#580);
#582=EDGE_CURVE('',#577,#235,#581,.T.);
#583=ORIENTED_EDGE('',*,*,#582,.F.);
#584=CARTESIAN_POINT('',(-31.848830964,4.5,6.155603749));
#585=DIRECTION('',(0.,-1.,0.));
#586=DIRECTION('',(1.,0.,0.));
#587=AXIS2_PLACEMENT_3D('',#584,#585,#586);
#588=CIRCLE('',#587,10.);
#589=EDGE_CURVE('',#538,#577,#588,.T.);
#590=ORIENTED_EDGE('',*,*,#589,.F.);
#591=EDGE_LOOP('',(#544,#552,#560,#566,#567,#574,#575,#583,#590));
#592=FACE_BOUND('',#591,.T.);
#593=ADVANCED_FACE('',(#534,#592),#531,.T.);
#594=CARTESIAN_POINT('',(-33.962848223,-4.5,16.155603749));
#595=DIRECTION('',(0.,0.,1.));
#596=DIRECTION('',(1.,0.,0.));
#597=AXIS2_PLACEMENT_3D('',#594,#595,#596);
#598=PLANE('',#597);
#599=ORIENTED_EDGE('',*,*,#112,.T.);
#600=ORIENTED_EDGE('',*,*,#278,.F.);
#601=ORIENTED_EDGE('',*,*,#514,.T.);
#602=CARTESIAN_POINT('',(-31.848830964,-4.5,16.155603749));
#603=DIRECTION('',(0.,1.,0.));
#604=VECTOR('',#603,90.);
#605=LINE('',#602,#604);
#606=EDGE_CURVE('',#502,#577,#605,.T.);
#607=ORIENTED_EDGE('',*,*,#606,.T.);
#608=ORIENTED_EDGE('',*,*,#582,.T.);
#609=ORIENTED_EDGE('',*,*,#240,.F.);
#610=ORIENTED_EDGE('',*,*,#51,.T.);
#611=ORIENTED_EDGE('',*,*,#158,.T.);
#612=EDGE_LOOP('',(#599,#600,#601,#607,#608,#609,#610,#611));
#613=FACE_BOUND('',#612,.T.);
#614=ADVANCED_FACE('',(#613),#598,.T.);
#615=CARTESIAN_POINT('',(-31.848830964,-4.5,6.155603749));
#616=DIRECTION('',(-0.,1.,0.));
#617=DIRECTION('',(1.,0.,0.));
#618=AXIS2_PLACEMENT_3D('',#615,#616,#617);
#619=CYLINDRICAL_SURFACE('',#618,10.);
#620=ORIENTED_EDGE('',*,*,#589,.T.);
#621=ORIENTED_EDGE('',*,*,#606,.F.);
#622=ORIENTED_EDGE('',*,*,#508,.T.);
#623=CARTESIAN_POINT('',(-27.546858495,-4.5,15.18295291));
#624=DIRECTION('',(0.,1.,0.));
#625=VECTOR('',#624,90.);
#626=LINE('',#623,#625);
#627=EDGE_CURVE('',#494,#538,#626,.T.);
#628=ORIENTED_EDGE('',*,*,#627,.T.);
#629=EDGE_LOOP('',(#620,#621,#622,#628));
#630=FACE_BOUND('',#629,.T.);
#631=ADVANCED_FACE('',(#630),#619,.T.);
#632=CARTESIAN_POINT('',(-16.023429248,-4.5,9.691476455));
#633=DIRECTION('',(0.430197247,0.,0.902734916));
#634=DIRECTION('',(0.902734916,0.,-0.430197247));
#635=AXIS2_PLACEMENT_3D('',#632,#633,#634);
#636=PLANE('',#635);
#637=ORIENTED_EDGE('',*,*,#543,.T.);
#638=ORIENTED_EDGE('',*,*,#627,.F.);
#639=ORIENTED_EDGE('',*,*,#499,.T.);
#640=CARTESIAN_POINT('',(-4.5,-4.5,4.2));
#641=DIRECTION('',(0.,1.,0.));
#642=VECTOR('',#641,90.);
#643=LINE('',#640,#642);
#644=EDGE_CURVE('',#486,#536,#643,.T.);
#645=ORIENTED_EDGE('',*,*,#644,.T.);
#646=EDGE_LOOP('',(#637,#638,#639,#645));
#647=FACE_BOUND('',#646,.T.);
#648=ADVANCED_FACE('',(#647),#636,.T.);
#649=CARTESIAN_POINT('',(0.,0.,4.2));
#650=DIRECTION('',(0.,0.,1.));
#651=DIRECTION('',(1.,0.,0.));
#652=AXIS2_PLACEMENT_3D('',#649,#650,#651);
#653=PLANE('',#652);
#654=CARTESIAN_POINT('',(0.,0.,4.2));
#655=DIRECTION('',(0.,0.,-1.));
#656=DIRECTION('',(1.,0.,0.));
#657=AXIS2_PLACEMENT_3D('',#654,#655,#656);
#658=CIRCLE('',#657,4.5);
#659=EDGE_CURVE('',#546,#478,#658,.T.);
#660=ORIENTED_EDGE('',*,*,#659,.F.);
#661=ORIENTED_EDGE('',*,*,#551,.F.);
#662=ORIENTED_EDGE('',*,*,#644,.F.);
#663=ORIENTED_EDGE('',*,*,#491,.F.);
#664=EDGE_LOOP('',(#660,#661,#662,#663));
#665=FACE_BOUND('',#664,.T.);
#666=ADVANCED_FACE('',(#665),#653,.T.);
#667=CARTESIAN_POINT('',(0.,0.,0.));
#668=DIRECTION('',(0.,0.,1.));
#669=DIRECTION('',(1.,0.,0.));
#670=AXIS2_PLACEMENT_3D('',#667,#668,#669);
#671=CYLINDRICAL_SURFACE('',#670,4.5);
#672=ORIENTED_EDGE('',*,*,#559,.T.);
#673=ORIENTED_EDGE('',*,*,#659,.T.);
#674=ORIENTED_EDGE('',*,*,#483,.T.);
#675=CARTESIAN_POINT('',(0.,0.,-0.));
#676=DIRECTION('',(0.,0.,1.));
#677=DIRECTION('',(1.,-0.,0.));
#678=AXIS2_PLACEMENT_3D('',#675,#676,#677);
#679=CIRCLE('',#678,4.5);
#680=EDGE_CURVE('',#470,#554,#679,.T.);
#681=ORIENTED_EDGE('',*,*,#680,.T.);
#682=EDGE_LOOP('',(#672,#673,#674,#681));
#683=FACE_BOUND('',#682,.T.);
#684=ADVANCED_FACE('',(#683),#671,.T.);
#685=CARTESIAN_POINT('',(0.,0.,0.));
#686=DIRECTION('',(0.,0.,1.));
#687=DIRECTION('',(1.,0.,0.));
#688=AXIS2_PLACEMENT_3D('',#685,#686,#687);
#689=PLANE('',#688);
#690=ORIENTED_EDGE('',*,*,#417,.T.);
#691=ORIENTED_EDGE('',*,*,#424,.T.);
#692=EDGE_LOOP('',(#690,#691));
#693=FACE_BOUND('',#692,.T.);
#694=ORIENTED_EDGE('',*,*,#680,.F.);
#695=ORIENTED_EDGE('',*,*,#475,.F.);
#696=ORIENTED_EDGE('',*,*,#201,.T.);
#697=ORIENTED_EDGE('',*,*,#565,.F.);
#698=EDGE_LOOP('',(#694,#695,#696,#697));
#699=FACE_BOUND('',#698,.T.);
#700=ADVANCED_FACE('',(#693,#699),#689,.F.);
#701=CARTESIAN_POINT('',(-36.076865481,-4.5,13.955603749));
#702=DIRECTION('',(-0.,1.,0.));
#703=DIRECTION('',(1.,0.,0.));
#704=AXIS2_PLACEMENT_3D('',#701,#702,#703);
#705=CYLINDRICAL_SURFACE('',#704,2.2);
#706=ORIENTED_EDGE('',*,*,#231,.F.);
#707=ORIENTED_EDGE('',*,*,#573,.T.);
#708=ORIENTED_EDGE('',*,*,#185,.F.);
#709=ORIENTED_EDGE('',*,*,#69,.T.);
#710=EDGE_LOOP('',(#706,#707,#708,#709));
#711=FACE_BOUND('',#710,.T.);
#712=ADVANCED_FACE('',(#711),#705,.T.);
#713=CARTESIAN_POINT('',(-36.076865481,-4.5,13.955603749));
#714=DIRECTION('',(-0.,1.,0.));
#715=DIRECTION('',(1.,0.,0.));
#716=AXIS2_PLACEMENT_3D('',#713,#714,#715);
#717=CYLINDRICAL_SURFACE('',#716,2.2);
#718=ORIENTED_EDGE('',*,*,#263,.F.);
#719=ORIENTED_EDGE('',*,*,#137,.T.);
#720=ORIENTED_EDGE('',*,*,#215,.F.);
#721=ORIENTED_EDGE('',*,*,#522,.T.);
#722=EDGE_LOOP('',(#718,#719,#720,#721));
#723=FACE_BOUND('',#722,.T.);
#724=ADVANCED_FACE('',(#723),#717,.T.);
#725=CLOSED_SHELL('',(#87,#148,#170,#219,#251,#283,#308,#333,#384,#394,#445,#459,#526,#593,#614,#631,#648,#666,#684,#700,#712,#724));
#726=MANIFOLD_SOLID_BREP('alibrePartClosedBody',#725);
#727=COLOUR_RGB('',1.,0.501960814,0.);
#728=FILL_AREA_STYLE_COLOUR('',#727);
#729=FILL_AREA_STYLE('',(#728));
#730=SURFACE_STYLE_FILL_AREA(#729);
#731=SURFACE_SIDE_STYLE('',(#730));
#732=SURFACE_STYLE_USAGE(.BOTH.,#731);
#733=PRESENTATION_STYLE_ASSIGNMENT((#732));
#26=STYLED_ITEM('',(#733),#726);
#16=SHAPE_REPRESENTATION('TripodCrank',(#15),#10);
#17=ADVANCED_BREP_SHAPE_REPRESENTATION('TripodCrank',(#726),#10);
#741=SHAPE_REPRESENTATION_RELATIONSHIP('','',#16,#17);
#742=CARTESIAN_POINT('',(0.,0.,0.));
#743=DIRECTION('',(0.,0.,1.));
#744=DIRECTION('',(1.,0.,0.));
#745=AXIS2_PLACEMENT_3D('',#742,#743,#744);
#747=MAPPED_ITEM('',#746,#745);
#746=REPRESENTATION_MAP(#745,#16);
#748=APPLICATION_CONTEXT('Managed model based 3d engineering');
#749=APPLICATION_PROTOCOL_DEFINITION('international standard','ap242_managed_model_based_3d_engineering',2013,#748);
#750=PRODUCT_CONTEXT('',#748,'mechanical');
#751=PRODUCT_DEFINITION_CONTEXT('part definition',#748,'design');
#24=PRODUCT('TripodCrank','TripodCrank','',(#750));
#752=PRODUCT_RELATED_PRODUCT_CATEGORY('part','',(#24));
#753=PRODUCT_DEFINITION_FORMATION_WITH_SPECIFIED_SOURCE('','',#24,.NOT_KNOWN.);
#25=PRODUCT_DEFINITION('design','',#753,#751);
#23=PRODUCT_DEFINITION_SHAPE('','',#25);
#754=SHAPE_DEFINITION_REPRESENTATION(#23,#16);
#11=DRAUGHTING_MODEL('',(#747),#10);
#1=MECHANICAL_DESIGN_GEOMETRIC_PRESENTATION_REPRESENTATION('',(#26),#10);
ENDSEC;
END-ISO-10303-21;
