ISO-10303-21;
HEADER;

/* File generated by Alibre Version V23 */

FILE_DESCRIPTION(('HOOPS Exchange Step'),'2;1');

FILE_NAME('C:\\Users\\johnd\\AppData\\Local\\Temp\\Alibre Design\\export-F1EFB755-2827-442E-8568-B95489362F5D.stp',
'2021-10-12T21:41:45+17:00',
('john'),
('Alibre'),
'HOOPS Exchange 2021.0',
'Alibre',
'Unknown authorisation');

FILE_SCHEMA( ('AP242_MANAGED_MODEL_BASED_3D_ENGINEERING_MIM_LF {1 0 10303 442 1 1 4 }') );

ENDSEC;

DATA;
#3=(NAMED_UNIT(*)PLANE_ANGLE_UNIT()SI_UNIT($,.RADIAN.));
#4=PLANE_ANGLE_MEASURE_WITH_UNIT(PLANE_ANGLE_MEASURE(0.0174532925),#3);
#5=(CONVERSION_BASED_UNIT('DEGREE',#4)NAMED_UNIT(#6)PLANE_ANGLE_UNIT());
#6=DIMENSIONAL_EXPONENTS(0.,0.,0.,0.,0.,0.,0.);
#7=(NAMED_UNIT(*)SI_UNIT($,.STERADIAN.)SOLID_ANGLE_UNIT());
#8=(LENGTH_UNIT()NAMED_UNIT(*)SI_UNIT(.MILLI.,.METRE.));
#9=UNCERTAINTY_MEASURE_WITH_UNIT(LENGTH_MEASURE(1.000000E-06),#8,'DISTANCE_ACCURACY_VALUE','Maximum Tolerance applied to model');
#10=(GEOMETRIC_REPRESENTATION_CONTEXT(3)GLOBAL_UNCERTAINTY_ASSIGNED_CONTEXT((#9))GLOBAL_UNIT_ASSIGNED_CONTEXT((#8,#5,#7))REPRESENTATION_CONTEXT('','TripodCrank'));
#12=CARTESIAN_POINT('',(0.,0.,0.));
#13=DIRECTION('',(0.,0.,1.));
#14=DIRECTION('',(1.,0.,0.));
#15=AXIS2_PLACEMENT_3D('',#12,#13,#14);
#27=CARTESIAN_POINT('',(-38.234505653,2.6,-35.96977856));
#28=DIRECTION('',(0.,1.,0.));
#29=DIRECTION('',(-1.,0.,-0.));
#30=AXIS2_PLACEMENT_3D('',#27,#28,#29);
#31=PLANE('',#30);
#32=CARTESIAN_POINT('',(-37.328835964,2.6,13.820912838));
#33=VERTEX_POINT('',#32);
#34=CARTESIAN_POINT('',(-35.828835964,2.6,13.820912838));
#35=DIRECTION('',(0.,-1.,0.));
#36=DIRECTION('',(1.,0.,0.));
#37=AXIS2_PLACEMENT_3D('',#34,#35,#36);
#38=CIRCLE('',#37,1.5);
#39=EDGE_CURVE('',#33,#33,#38,.T.);
#40=ORIENTED_EDGE('',*,*,#39,.F.);
#41=EDGE_LOOP('',(#40));
#42=FACE_BOUND('',#41,.T.);
#43=CARTESIAN_POINT('',(-36.076865481,2.6,16.155603749));
#44=VERTEX_POINT('',#43);
#45=CARTESIAN_POINT('',(-32.234505653,2.6,16.155603749));
#46=VERTEX_POINT('',#45);
#47=CARTESIAN_POINT('',(-35.880562367,2.6,16.155603749));
#48=DIRECTION('',(1.,0.,0.));
#49=VECTOR('',#48,38.423598275);
#50=LINE('',#47,#49);
#51=EDGE_CURVE('',#44,#46,#50,.T.);
#52=ORIENTED_EDGE('',*,*,#51,.F.);
#53=CARTESIAN_POINT('',(-38.276865481,2.6,13.955603749));
#54=VERTEX_POINT('',#53);
#55=CARTESIAN_POINT('',(-36.076865481,2.6,13.955603749));
#56=DIRECTION('',(-0.,1.,0.));
#57=DIRECTION('',(1.,0.,0.));
#58=AXIS2_PLACEMENT_3D('',#55,#56,#57);
#59=CIRCLE('',#58,2.2);
#60=EDGE_CURVE('',#54,#44,#59,.T.);
#61=ORIENTED_EDGE('',*,*,#60,.F.);
#62=CARTESIAN_POINT('',(-36.86817763,2.6,11.902843392));
#63=VERTEX_POINT('',#62);
#64=CARTESIAN_POINT('',(-36.076865481,2.6,13.955603749));
#65=DIRECTION('',(-0.,1.,0.));
#66=DIRECTION('',(1.,0.,0.));
#67=AXIS2_PLACEMENT_3D('',#64,#65,#66);
#68=CIRCLE('',#67,2.2);
#69=EDGE_CURVE('',#63,#54,#68,.T.);
#70=ORIENTED_EDGE('',*,*,#69,.F.);
#71=CARTESIAN_POINT('',(-32.234505653,2.6,10.198889821));
#72=VERTEX_POINT('',#71);
#73=CARTESIAN_POINT('',(-127.726730256,2.6,45.314521217));
#74=DIRECTION('',(-0.938552462,0.,0.345136606));
#75=VECTOR('',#74,49.370409923);
#76=LINE('',#73,#75);
#77=EDGE_CURVE('',#72,#63,#76,.T.);
#78=ORIENTED_EDGE('',*,*,#77,.F.);
#79=CARTESIAN_POINT('',(-32.234505653,2.6,425.716905246));
#80=DIRECTION('',(-0.,0.,1.));
#81=VECTOR('',#80,59.567139281);
#82=LINE('',#79,#81);
#83=EDGE_CURVE('',#72,#46,#82,.T.);
#84=ORIENTED_EDGE('',*,*,#83,.T.);
#85=EDGE_LOOP('',(#52,#61,#70,#78,#84));
#86=FACE_BOUND('',#85,.T.);
#87=ADVANCED_FACE('',(#42,#86),#31,.F.);
#88=CARTESIAN_POINT('',(-38.234505653,-2.6,-35.96977856));
#89=DIRECTION('',(0.,-1.,0.));
#90=DIRECTION('',(1.,0.,0.));
#91=AXIS2_PLACEMENT_3D('',#88,#89,#90);
#92=PLANE('',#91);
#93=CARTESIAN_POINT('',(-37.328835964,-2.6,13.820912838));
#94=VERTEX_POINT('',#93);
#95=CARTESIAN_POINT('',(-35.828835964,-2.6,13.820912838));
#96=DIRECTION('',(-0.,1.,0.));
#97=DIRECTION('',(1.,0.,0.));
#98=AXIS2_PLACEMENT_3D('',#95,#96,#97);
#99=CIRCLE('',#98,1.5);
#100=EDGE_CURVE('',#94,#94,#99,.T.);
#101=ORIENTED_EDGE('',*,*,#100,.F.);
#102=EDGE_LOOP('',(#101));
#103=FACE_BOUND('',#102,.T.);
#104=CARTESIAN_POINT('',(-32.234505653,-2.6,16.155603749));
#105=VERTEX_POINT('',#104);
#106=CARTESIAN_POINT('',(-36.076865481,-2.6,16.155603749));
#107=VERTEX_POINT('',#106);
#108=CARTESIAN_POINT('',(2.543035908,-2.6,16.155603749));
#109=DIRECTION('',(-1.,0.,-0.));
#110=VECTOR('',#109,38.423598275);
#111=LINE('',#108,#110);
#112=EDGE_CURVE('',#105,#107,#111,.T.);
#113=ORIENTED_EDGE('',*,*,#112,.F.);
#114=CARTESIAN_POINT('',(-32.234505653,-2.6,10.198889821));
#115=VERTEX_POINT('',#114);
#116=CARTESIAN_POINT('',(-32.234505653,-2.6,425.716905246));
#117=DIRECTION('',(-0.,0.,1.));
#118=VECTOR('',#117,59.567139281);
#119=LINE('',#116,#118);
#120=EDGE_CURVE('',#115,#105,#119,.T.);
#121=ORIENTED_EDGE('',*,*,#120,.F.);
#122=CARTESIAN_POINT('',(-36.86817763,-2.6,11.902843392));
#123=VERTEX_POINT('',#122);
#124=CARTESIAN_POINT('',(-174.063450022,-2.6,62.35405693));
#125=DIRECTION('',(0.938552462,0.,-0.345136606));
#126=VECTOR('',#125,49.370409923);
#127=LINE('',#124,#126);
#128=EDGE_CURVE('',#123,#115,#127,.T.);
#129=ORIENTED_EDGE('',*,*,#128,.F.);
#130=CARTESIAN_POINT('',(-38.276865481,-2.6,13.955603749));
#131=VERTEX_POINT('',#130);
#132=CARTESIAN_POINT('',(-36.076865481,-2.6,13.955603749));
#133=DIRECTION('',(0.,-1.,0.));
#134=DIRECTION('',(1.,0.,0.));
#135=AXIS2_PLACEMENT_3D('',#132,#133,#134);
#136=CIRCLE('',#135,2.2);
#137=EDGE_CURVE('',#131,#123,#136,.T.);
#138=ORIENTED_EDGE('',*,*,#137,.F.);
#139=CARTESIAN_POINT('',(-36.076865481,-2.6,13.955603749));
#140=DIRECTION('',(0.,-1.,0.));
#141=DIRECTION('',(1.,0.,0.));
#142=AXIS2_PLACEMENT_3D('',#139,#140,#141);
#143=CIRCLE('',#142,2.2);
#144=EDGE_CURVE('',#107,#131,#143,.T.);
#145=ORIENTED_EDGE('',*,*,#144,.F.);
#146=EDGE_LOOP('',(#113,#121,#129,#138,#145));
#147=FACE_BOUND('',#146,.T.);
#148=ADVANCED_FACE('',(#103,#147),#92,.F.);
#149=CARTESIAN_POINT('',(-32.234505653,-0.,-35.96977856));
#150=DIRECTION('',(1.,0.,0.));
#151=DIRECTION('',(0.,1.,0.));
#152=AXIS2_PLACEMENT_3D('',#149,#150,#151);
#153=PLANE('',#152);
#154=CARTESIAN_POINT('',(-32.234505653,46.25,16.155603749));
#155=DIRECTION('',(0.,-1.,0.));
#156=VECTOR('',#155,52.);
#157=LINE('',#154,#156);
#158=EDGE_CURVE('',#46,#105,#157,.T.);
#159=ORIENTED_EDGE('',*,*,#158,.F.);
#160=ORIENTED_EDGE('',*,*,#83,.F.);
#161=CARTESIAN_POINT('',(-32.234505653,-5.75,10.198889821));
#162=DIRECTION('',(0.,1.,0.));
#163=VECTOR('',#162,52.);
#164=LINE('',#161,#163);
#165=EDGE_CURVE('',#115,#72,#164,.T.);
#166=ORIENTED_EDGE('',*,*,#165,.F.);
#167=ORIENTED_EDGE('',*,*,#120,.T.);
#168=EDGE_LOOP('',(#159,#160,#166,#167));
#169=FACE_BOUND('',#168,.T.);
#170=ADVANCED_FACE('',(#169),#153,.F.);
#171=CARTESIAN_POINT('',(-20.684088815,-4.5,5.951421696));
#172=DIRECTION('',(-0.345136606,0.,-0.938552462));
#173=DIRECTION('',(-0.938552462,0.,0.345136606));
#174=AXIS2_PLACEMENT_3D('',#171,#172,#173);
#175=PLANE('',#174);
#176=ORIENTED_EDGE('',*,*,#128,.T.);
#177=ORIENTED_EDGE('',*,*,#165,.T.);
#178=ORIENTED_EDGE('',*,*,#77,.T.);
#179=CARTESIAN_POINT('',(-36.86817763,4.5,11.902843392));
#180=VERTEX_POINT('',#179);
#181=CARTESIAN_POINT('',(-36.86817763,66.5,11.902843392));
#182=DIRECTION('',(0.,1.,0.));
#183=VECTOR('',#182,19.);
#184=LINE('',#181,#183);
#185=EDGE_CURVE('',#63,#180,#184,.T.);
#186=ORIENTED_EDGE('',*,*,#185,.T.);
#187=CARTESIAN_POINT('',(-4.5,4.5,-0.));
#188=VERTEX_POINT('',#187);
#189=CARTESIAN_POINT('',(-328.1817763,4.5,119.028433923));
#190=DIRECTION('',(0.938552462,0.,-0.345136606));
#191=VECTOR('',#190,344.873397627);
#192=LINE('',#189,#191);
#193=EDGE_CURVE('',#180,#188,#192,.T.);
#194=ORIENTED_EDGE('',*,*,#193,.T.);
#195=CARTESIAN_POINT('',(-4.5,-4.5,-0.));
#196=VERTEX_POINT('',#195);
#197=CARTESIAN_POINT('',(-4.5,-4.5,-0.));
#198=DIRECTION('',(0.,1.,0.));
#199=VECTOR('',#198,90.);
#200=LINE('',#197,#199);
#201=EDGE_CURVE('',#196,#188,#200,.T.);
#202=ORIENTED_EDGE('',*,*,#201,.F.);
#203=CARTESIAN_POINT('',(-36.86817763,-4.5,11.902843392));
#204=VERTEX_POINT('',#203);
#205=CARTESIAN_POINT('',(-4.5,-4.5,-0.));
#206=DIRECTION('',(-0.938552462,0.,0.345136606));
#207=VECTOR('',#206,344.873397627);
#208=LINE('',#205,#207);
#209=EDGE_CURVE('',#196,#204,#208,.T.);
#210=ORIENTED_EDGE('',*,*,#209,.T.);
#211=CARTESIAN_POINT('',(-36.86817763,-4.5,11.902843392));
#212=DIRECTION('',(0.,1.,0.));
#213=VECTOR('',#212,19.);
#214=LINE('',#211,#213);
#215=EDGE_CURVE('',#204,#123,#214,.T.);
#216=ORIENTED_EDGE('',*,*,#215,.T.);
#217=EDGE_LOOP('',(#176,#177,#178,#186,#194,#202,#210,#216));
#218=FACE_BOUND('',#217,.T.);
#219=ADVANCED_FACE('',(#218),#175,.T.);
#220=CARTESIAN_POINT('',(-36.076865481,-4.5,13.955603749));
#221=DIRECTION('',(-0.,1.,0.));
#222=DIRECTION('',(1.,0.,0.));
#223=AXIS2_PLACEMENT_3D('',#220,#221,#222);
#224=CYLINDRICAL_SURFACE('',#223,2.2);
#225=CARTESIAN_POINT('',(-38.276865481,4.5,13.955603749));
#226=VERTEX_POINT('',#225);
#227=CARTESIAN_POINT('',(-38.276865481,4.5,13.955603749));
#228=DIRECTION('',(-0.,-1.,-0.));
#229=VECTOR('',#228,1.9);
#230=LINE('',#227,#229);
#231=EDGE_CURVE('',#226,#54,#230,.T.);
#232=ORIENTED_EDGE('',*,*,#231,.T.);
#233=ORIENTED_EDGE('',*,*,#60,.T.);
#234=CARTESIAN_POINT('',(-36.076865481,4.5,16.155603749));
#235=VERTEX_POINT('',#234);
#236=CARTESIAN_POINT('',(-36.076865481,66.5,16.155603749));
#237=DIRECTION('',(0.,1.,0.));
#238=VECTOR('',#237,19.);
#239=LINE('',#236,#238);
#240=EDGE_CURVE('',#44,#235,#239,.T.);
#241=ORIENTED_EDGE('',*,*,#240,.T.);
#242=CARTESIAN_POINT('',(-36.076865481,4.5,13.955603749));
#243=DIRECTION('',(0.,-1.,0.));
#244=DIRECTION('',(1.,0.,0.));
#245=AXIS2_PLACEMENT_3D('',#242,#243,#244);
#246=CIRCLE('',#245,2.2);
#247=EDGE_CURVE('',#235,#226,#246,.T.);
#248=ORIENTED_EDGE('',*,*,#247,.T.);
#249=EDGE_LOOP('',(#232,#233,#241,#248));
#250=FACE_BOUND('',#249,.T.);
#251=ADVANCED_FACE('',(#250),#224,.T.);
#252=CARTESIAN_POINT('',(-36.076865481,-4.5,13.955603749));
#253=DIRECTION('',(-0.,1.,0.));
#254=DIRECTION('',(1.,0.,0.));
#255=AXIS2_PLACEMENT_3D('',#252,#253,#254);
#256=CYLINDRICAL_SURFACE('',#255,2.2);
#257=CARTESIAN_POINT('',(-38.276865481,-4.5,13.955603749));
#258=VERTEX_POINT('',#257);
#259=CARTESIAN_POINT('',(-38.276865481,-2.6,13.955603749));
#260=DIRECTION('',(-0.,-1.,-0.));
#261=VECTOR('',#260,1.9);
#262=LINE('',#259,#261);
#263=EDGE_CURVE('',#131,#258,#262,.T.);
#264=ORIENTED_EDGE('',*,*,#263,.T.);
#265=CARTESIAN_POINT('',(-36.076865481,-4.5,16.155603749));
#266=VERTEX_POINT('',#265);
#267=CARTESIAN_POINT('',(-36.076865481,-4.5,13.955603749));
#268=DIRECTION('',(-0.,1.,0.));
#269=DIRECTION('',(1.,0.,0.));
#270=AXIS2_PLACEMENT_3D('',#267,#268,#269);
#271=CIRCLE('',#270,2.2);
#272=EDGE_CURVE('',#258,#266,#271,.T.);
#273=ORIENTED_EDGE('',*,*,#272,.T.);
#274=CARTESIAN_POINT('',(-36.076865481,-4.5,16.155603749));
#275=DIRECTION('',(0.,1.,0.));
#276=VECTOR('',#275,19.);
#277=LINE('',#274,#276);
#278=EDGE_CURVE('',#266,#107,#277,.T.);
#279=ORIENTED_EDGE('',*,*,#278,.T.);
#280=ORIENTED_EDGE('',*,*,#144,.T.);
#281=EDGE_LOOP('',(#264,#273,#279,#280));
#282=FACE_BOUND('',#281,.T.);
#283=ADVANCED_FACE('',(#282),#256,.T.);
#284=CARTESIAN_POINT('',(-35.828835964,-42.103259037,13.820912838));
#285=DIRECTION('',(-0.,1.,0.));
#286=DIRECTION('',(1.,0.,0.));
#287=AXIS2_PLACEMENT_3D('',#284,#285,#286);
#288=CYLINDRICAL_SURFACE('',#287,1.5);
#289=CARTESIAN_POINT('',(-37.328835964,-4.5,13.820912838));
#290=VERTEX_POINT('',#289);
#291=CARTESIAN_POINT('',(-37.328835964,-2.6,13.820912838));
#292=DIRECTION('',(-0.,-1.,-0.));
#293=VECTOR('',#292,1.9);
#294=LINE('',#291,#293);
#295=EDGE_CURVE('',#94,#290,#294,.T.);
#296=ORIENTED_EDGE('',*,*,#295,.F.);
#297=ORIENTED_EDGE('',*,*,#100,.T.);
#298=ORIENTED_EDGE('',*,*,#295,.T.);
#299=CARTESIAN_POINT('',(-35.828835964,-4.5,13.820912838));
#300=DIRECTION('',(0.,1.,-0.));
#301=DIRECTION('',(1.,0.,0.));
#302=AXIS2_PLACEMENT_3D('',#299,#300,#301);
#303=CIRCLE('',#302,1.5);
#304=EDGE_CURVE('',#290,#290,#303,.T.);
#305=ORIENTED_EDGE('',*,*,#304,.F.);
#306=EDGE_LOOP('',(#296,#297,#298,#305));
#307=FACE_BOUND('',#306,.T.);
#308=ADVANCED_FACE('',(#307),#288,.F.);
#309=CARTESIAN_POINT('',(-35.828835964,-42.103259037,13.820912838));
#310=DIRECTION('',(-0.,1.,0.));
#311=DIRECTION('',(1.,0.,0.));
#312=AXIS2_PLACEMENT_3D('',#309,#310,#311);
#313=CYLINDRICAL_SURFACE('',#312,1.5);
#314=CARTESIAN_POINT('',(-37.328835964,4.5,13.820912838));
#315=VERTEX_POINT('',#314);
#316=CARTESIAN_POINT('',(-37.328835964,4.5,13.820912838));
#317=DIRECTION('',(-0.,-1.,-0.));
#318=VECTOR('',#317,1.9);
#319=LINE('',#316,#318);
#320=EDGE_CURVE('',#315,#33,#319,.T.);
#321=ORIENTED_EDGE('',*,*,#320,.F.);
#322=CARTESIAN_POINT('',(-35.828835964,4.5,13.820912838));
#323=DIRECTION('',(0.,-1.,0.));
#324=DIRECTION('',(1.,0.,0.));
#325=AXIS2_PLACEMENT_3D('',#322,#323,#324);
#326=CIRCLE('',#325,1.5);
#327=EDGE_CURVE('',#315,#315,#326,.T.);
#328=ORIENTED_EDGE('',*,*,#327,.F.);
#329=ORIENTED_EDGE('',*,*,#320,.T.);
#330=ORIENTED_EDGE('',*,*,#39,.T.);
#331=EDGE_LOOP('',(#321,#328,#329,#330));
#332=FACE_BOUND('',#331,.T.);
#333=ADVANCED_FACE('',(#332),#313,.F.);
#334=CARTESIAN_POINT('',(0.,0.,4.2));
#335=DIRECTION('',(0.,0.,-1.));
#336=DIRECTION('',(1.,0.,0.));
#337=AXIS2_PLACEMENT_3D('',#334,#335,#336);
#338=CYLINDRICAL_SURFACE('',#337,1.5);
#339=CARTESIAN_POINT('',(-1.5,-0.,0.));
#340=VERTEX_POINT('',#339);
#341=CARTESIAN_POINT('',(-1.5,-0.,4.2));
#342=VERTEX_POINT('',#341);
#343=CARTESIAN_POINT('',(-1.5,-0.,0.));
#344=DIRECTION('',(-0.,-0.,1.));
#345=VECTOR('',#344,4.2);
#346=LINE('',#343,#345);
#347=EDGE_CURVE('',#340,#342,#346,.T.);
#348=ORIENTED_EDGE('',*,*,#347,.F.);
#349=CARTESIAN_POINT('',(1.5,0.,0.));
#350=VERTEX_POINT('',#349);
#351=CARTESIAN_POINT('',(0.,0.,-0.));
#352=DIRECTION('',(0.,0.,1.));
#353=DIRECTION('',(1.,-0.,0.));
#354=AXIS2_PLACEMENT_3D('',#351,#352,#353);
#355=CIRCLE('',#354,1.5);
#356=EDGE_CURVE('',#350,#340,#355,.T.);
#357=ORIENTED_EDGE('',*,*,#356,.F.);
#358=CARTESIAN_POINT('',(0.,0.,-0.));
#359=DIRECTION('',(0.,0.,1.));
#360=DIRECTION('',(1.,-0.,0.));
#361=AXIS2_PLACEMENT_3D('',#358,#359,#360);
#362=CIRCLE('',#361,1.5);
#363=EDGE_CURVE('',#340,#350,#362,.T.);
#364=ORIENTED_EDGE('',*,*,#363,.F.);
#365=ORIENTED_EDGE('',*,*,#347,.T.);
#366=CARTESIAN_POINT('',(1.5,0.,4.2));
#367=VERTEX_POINT('',#366);
#368=CARTESIAN_POINT('',(0.,0.,4.2));
#369=DIRECTION('',(0.,0.,-1.));
#370=DIRECTION('',(1.,0.,0.));
#371=AXIS2_PLACEMENT_3D('',#368,#369,#370);
#372=CIRCLE('',#371,1.5);
#373=EDGE_CURVE('',#367,#342,#372,.T.);
#374=ORIENTED_EDGE('',*,*,#373,.F.);
#375=CARTESIAN_POINT('',(0.,0.,4.2));
#376=DIRECTION('',(0.,0.,-1.));
#377=DIRECTION('',(1.,0.,0.));
#378=AXIS2_PLACEMENT_3D('',#375,#376,#377);
#379=CIRCLE('',#378,1.5);
#380=EDGE_CURVE('',#342,#367,#379,.T.);
#381=ORIENTED_EDGE('',*,*,#380,.F.);
#382=EDGE_LOOP('',(#348,#357,#364,#365,#374,#381));
#383=FACE_BOUND('',#382,.T.);
#384=ADVANCED_FACE('',(#383),#338,.F.);
#385=CARTESIAN_POINT('',(-20.83247134,-4.5,8.695448988));
#386=DIRECTION('',(-0.,1.,-0.));
#387=DIRECTION('',(0.,0.,1.));
#388=AXIS2_PLACEMENT_3D('',#385,#386,#387);
#389=PLANE('',#388);
#390=ORIENTED_EDGE('',*,*,#304,.T.);
#391=EDGE_LOOP('',(#390));
#392=FACE_BOUND('',#391,.T.);
#393=ORIENTED_EDGE('',*,*,#209,.F.);
#394=CARTESIAN_POINT('',(-0.,-4.5,0.));
#395=VERTEX_POINT('',#394);
#396=CARTESIAN_POINT('',(-4.5,-4.5,0.));
#397=DIRECTION('',(1.,0.,-0.));
#398=VECTOR('',#397,45.);
#399=LINE('',#396,#398);
#400=EDGE_CURVE('',#196,#395,#399,.T.);
#401=ORIENTED_EDGE('',*,*,#400,.T.);
#402=CARTESIAN_POINT('',(0.,-4.5,4.2));
#403=VERTEX_POINT('',#402);
#404=CARTESIAN_POINT('',(0.,-4.5,42.));
#405=DIRECTION('',(0.,0.,-1.));
#406=VECTOR('',#405,42.);
#407=LINE('',#404,#406);
#408=EDGE_CURVE('',#403,#395,#407,.T.);
#409=ORIENTED_EDGE('',*,*,#408,.F.);
#410=CARTESIAN_POINT('',(-4.5,-4.5,4.2));
#411=VERTEX_POINT('',#410);
#412=CARTESIAN_POINT('',(40.5,-4.5,4.2));
#413=DIRECTION('',(-1.,0.,0.));
#414=VECTOR('',#413,45.);
#415=LINE('',#412,#414);
#416=EDGE_CURVE('',#403,#411,#415,.T.);
#417=ORIENTED_EDGE('',*,*,#416,.T.);
#418=CARTESIAN_POINT('',(-27.546858495,-4.5,15.18295291));
#419=VERTEX_POINT('',#418);
#420=CARTESIAN_POINT('',(-27.546858495,-4.5,15.18295291));
#421=DIRECTION('',(0.902734916,0.,-0.430197247));
#422=VECTOR('',#421,255.300399752);
#423=LINE('',#420,#422);
#424=EDGE_CURVE('',#419,#411,#423,.T.);
#425=ORIENTED_EDGE('',*,*,#424,.F.);
#426=CARTESIAN_POINT('',(-31.848830964,-4.5,16.155603749));
#427=VERTEX_POINT('',#426);
#428=CARTESIAN_POINT('',(-31.848830964,-4.5,6.155603749));
#429=DIRECTION('',(-0.,1.,0.));
#430=DIRECTION('',(1.,0.,0.));
#431=AXIS2_PLACEMENT_3D('',#428,#429,#430);
#432=CIRCLE('',#431,10.);
#433=EDGE_CURVE('',#427,#419,#432,.T.);
#434=ORIENTED_EDGE('',*,*,#433,.F.);
#435=CARTESIAN_POINT('',(-36.076865481,-4.5,16.155603749));
#436=DIRECTION('',(1.,0.,0.));
#437=VECTOR('',#436,42.280345166);
#438=LINE('',#435,#437);
#439=EDGE_CURVE('',#266,#427,#438,.T.);
#440=ORIENTED_EDGE('',*,*,#439,.F.);
#441=ORIENTED_EDGE('',*,*,#272,.F.);
#442=CARTESIAN_POINT('',(-36.076865481,-4.5,13.955603749));
#443=DIRECTION('',(-0.,1.,0.));
#444=DIRECTION('',(1.,0.,0.));
#445=AXIS2_PLACEMENT_3D('',#442,#443,#444);
#446=CIRCLE('',#445,2.2);
#447=EDGE_CURVE('',#204,#258,#446,.T.);
#448=ORIENTED_EDGE('',*,*,#447,.F.);
#449=EDGE_LOOP('',(#393,#401,#409,#417,#425,#434,#440,#441,#448));
#450=FACE_BOUND('',#449,.T.);
#451=ADVANCED_FACE('',(#392,#450),#389,.F.);
#452=CARTESIAN_POINT('',(-20.83247134,4.5,8.695448988));
#453=DIRECTION('',(-0.,1.,-0.));
#454=DIRECTION('',(0.,0.,1.));
#455=AXIS2_PLACEMENT_3D('',#452,#453,#454);
#456=PLANE('',#455);
#457=ORIENTED_EDGE('',*,*,#327,.T.);
#458=EDGE_LOOP('',(#457));
#459=FACE_BOUND('',#458,.T.);
#460=CARTESIAN_POINT('',(-4.5,4.5,4.2));
#461=VERTEX_POINT('',#460);
#462=CARTESIAN_POINT('',(-27.546858495,4.5,15.18295291));
#463=VERTEX_POINT('',#462);
#464=CARTESIAN_POINT('',(202.921726459,4.5,-94.646576192));
#465=DIRECTION('',(-0.902734916,0.,0.430197247));
#466=VECTOR('',#465,255.300399752);
#467=LINE('',#464,#466);
#468=EDGE_CURVE('',#461,#463,#467,.T.);
#469=ORIENTED_EDGE('',*,*,#468,.F.);
#470=CARTESIAN_POINT('',(0.,4.5,4.2));
#471=VERTEX_POINT('',#470);
#472=CARTESIAN_POINT('',(-45.,4.5,4.2));
#473=DIRECTION('',(1.,0.,-0.));
#474=VECTOR('',#473,45.);
#475=LINE('',#472,#474);
#476=EDGE_CURVE('',#461,#471,#475,.T.);
#477=ORIENTED_EDGE('',*,*,#476,.T.);
#478=CARTESIAN_POINT('',(-0.,4.5,0.));
#479=VERTEX_POINT('',#478);
#480=CARTESIAN_POINT('',(0.,4.5,-18.9));
#481=DIRECTION('',(0.,0.,1.));
#482=VECTOR('',#481,42.);
#483=LINE('',#480,#482);
#484=EDGE_CURVE('',#479,#471,#483,.T.);
#485=ORIENTED_EDGE('',*,*,#484,.F.);
#486=CARTESIAN_POINT('',(-0.,4.5,0.));
#487=DIRECTION('',(-1.,0.,0.));
#488=VECTOR('',#487,45.);
#489=LINE('',#486,#488);
#490=EDGE_CURVE('',#479,#188,#489,.T.);
#491=ORIENTED_EDGE('',*,*,#490,.T.);
#492=ORIENTED_EDGE('',*,*,#193,.F.);
#493=CARTESIAN_POINT('',(-36.076865481,4.5,13.955603749));
#494=DIRECTION('',(0.,-1.,0.));
#495=DIRECTION('',(1.,0.,0.));
#496=AXIS2_PLACEMENT_3D('',#493,#494,#495);
#497=CIRCLE('',#496,2.2);
#498=EDGE_CURVE('',#226,#180,#497,.T.);
#499=ORIENTED_EDGE('',*,*,#498,.F.);
#500=ORIENTED_EDGE('',*,*,#247,.F.);
#501=CARTESIAN_POINT('',(-31.848830964,4.5,16.155603749));
#502=VERTEX_POINT('',#501);
#503=CARTESIAN_POINT('',(6.203479685,4.5,16.155603749));
#504=DIRECTION('',(-1.,0.,-0.));
#505=VECTOR('',#504,42.280345166);
#506=LINE('',#503,#505);
#507=EDGE_CURVE('',#502,#235,#506,.T.);
#508=ORIENTED_EDGE('',*,*,#507,.F.);
#509=CARTESIAN_POINT('',(-31.848830964,4.5,6.155603749));
#510=DIRECTION('',(0.,-1.,0.));
#511=DIRECTION('',(1.,0.,0.));
#512=AXIS2_PLACEMENT_3D('',#509,#510,#511);
#513=CIRCLE('',#512,10.);
#514=EDGE_CURVE('',#463,#502,#513,.T.);
#515=ORIENTED_EDGE('',*,*,#514,.F.);
#516=EDGE_LOOP('',(#469,#477,#485,#491,#492,#499,#500,#508,#515));
#517=FACE_BOUND('',#516,.T.);
#518=ADVANCED_FACE('',(#459,#517),#456,.T.);
#519=CARTESIAN_POINT('',(-33.962848223,-4.5,16.155603749));
#520=DIRECTION('',(-0.,0.,1.));
#521=DIRECTION('',(1.,0.,0.));
#522=AXIS2_PLACEMENT_3D('',#519,#520,#521);
#523=PLANE('',#522);
#524=ORIENTED_EDGE('',*,*,#112,.T.);
#525=ORIENTED_EDGE('',*,*,#278,.F.);
#526=ORIENTED_EDGE('',*,*,#439,.T.);
#527=CARTESIAN_POINT('',(-31.848830964,-4.5,16.155603749));
#528=DIRECTION('',(0.,1.,0.));
#529=VECTOR('',#528,90.);
#530=LINE('',#527,#529);
#531=EDGE_CURVE('',#427,#502,#530,.T.);
#532=ORIENTED_EDGE('',*,*,#531,.T.);
#533=ORIENTED_EDGE('',*,*,#507,.T.);
#534=ORIENTED_EDGE('',*,*,#240,.F.);
#535=ORIENTED_EDGE('',*,*,#51,.T.);
#536=ORIENTED_EDGE('',*,*,#158,.T.);
#537=EDGE_LOOP('',(#524,#525,#526,#532,#533,#534,#535,#536));
#538=FACE_BOUND('',#537,.T.);
#539=ADVANCED_FACE('',(#538),#523,.T.);
#540=CARTESIAN_POINT('',(-31.848830964,-4.5,6.155603749));
#541=DIRECTION('',(-0.,1.,0.));
#542=DIRECTION('',(1.,0.,0.));
#543=AXIS2_PLACEMENT_3D('',#540,#541,#542);
#544=CYLINDRICAL_SURFACE('',#543,10.);
#545=ORIENTED_EDGE('',*,*,#514,.T.);
#546=ORIENTED_EDGE('',*,*,#531,.F.);
#547=ORIENTED_EDGE('',*,*,#433,.T.);
#548=CARTESIAN_POINT('',(-27.546858495,-4.5,15.18295291));
#549=DIRECTION('',(0.,1.,0.));
#550=VECTOR('',#549,90.);
#551=LINE('',#548,#550);
#552=EDGE_CURVE('',#419,#463,#551,.T.);
#553=ORIENTED_EDGE('',*,*,#552,.T.);
#554=EDGE_LOOP('',(#545,#546,#547,#553));
#555=FACE_BOUND('',#554,.T.);
#556=ADVANCED_FACE('',(#555),#544,.T.);
#557=CARTESIAN_POINT('',(-16.023429248,-4.5,9.691476455));
#558=DIRECTION('',(0.430197247,0.,0.902734916));
#559=DIRECTION('',(0.902734916,0.,-0.430197247));
#560=AXIS2_PLACEMENT_3D('',#557,#558,#559);
#561=PLANE('',#560);
#562=ORIENTED_EDGE('',*,*,#468,.T.);
#563=ORIENTED_EDGE('',*,*,#552,.F.);
#564=ORIENTED_EDGE('',*,*,#424,.T.);
#565=CARTESIAN_POINT('',(-4.5,-4.5,4.2));
#566=DIRECTION('',(0.,1.,0.));
#567=VECTOR('',#566,90.);
#568=LINE('',#565,#567);
#569=EDGE_CURVE('',#411,#461,#568,.T.);
#570=ORIENTED_EDGE('',*,*,#569,.T.);
#571=EDGE_LOOP('',(#562,#563,#564,#570));
#572=FACE_BOUND('',#571,.T.);
#573=ADVANCED_FACE('',(#572),#561,.T.);
#574=CARTESIAN_POINT('',(0.,0.,4.2));
#575=DIRECTION('',(0.,0.,1.));
#576=DIRECTION('',(1.,0.,0.));
#577=AXIS2_PLACEMENT_3D('',#574,#575,#576);
#578=PLANE('',#577);
#579=ORIENTED_EDGE('',*,*,#373,.T.);
#580=ORIENTED_EDGE('',*,*,#380,.T.);
#581=EDGE_LOOP('',(#579,#580));
#582=FACE_BOUND('',#581,.T.);
#583=CARTESIAN_POINT('',(0.,0.,4.2));
#584=DIRECTION('',(0.,0.,-1.));
#585=DIRECTION('',(1.,0.,0.));
#586=AXIS2_PLACEMENT_3D('',#583,#584,#585);
#587=CIRCLE('',#586,4.5);
#588=EDGE_CURVE('',#471,#403,#587,.T.);
#589=ORIENTED_EDGE('',*,*,#588,.F.);
#590=ORIENTED_EDGE('',*,*,#476,.F.);
#591=ORIENTED_EDGE('',*,*,#569,.F.);
#592=ORIENTED_EDGE('',*,*,#416,.F.);
#593=EDGE_LOOP('',(#589,#590,#591,#592));
#594=FACE_BOUND('',#593,.T.);
#595=ADVANCED_FACE('',(#582,#594),#578,.T.);
#596=CARTESIAN_POINT('',(0.,0.,0.));
#597=DIRECTION('',(0.,0.,1.));
#598=DIRECTION('',(1.,0.,0.));
#599=AXIS2_PLACEMENT_3D('',#596,#597,#598);
#600=CYLINDRICAL_SURFACE('',#599,4.5);
#601=ORIENTED_EDGE('',*,*,#484,.T.);
#602=ORIENTED_EDGE('',*,*,#588,.T.);
#603=ORIENTED_EDGE('',*,*,#408,.T.);
#604=CARTESIAN_POINT('',(0.,0.,-0.));
#605=DIRECTION('',(0.,0.,1.));
#606=DIRECTION('',(1.,-0.,0.));
#607=AXIS2_PLACEMENT_3D('',#604,#605,#606);
#608=CIRCLE('',#607,4.5);
#609=EDGE_CURVE('',#395,#479,#608,.T.);
#610=ORIENTED_EDGE('',*,*,#609,.T.);
#611=EDGE_LOOP('',(#601,#602,#603,#610));
#612=FACE_BOUND('',#611,.T.);
#613=ADVANCED_FACE('',(#612),#600,.T.);
#614=CARTESIAN_POINT('',(0.,0.,0.));
#615=DIRECTION('',(0.,0.,1.));
#616=DIRECTION('',(1.,0.,0.));
#617=AXIS2_PLACEMENT_3D('',#614,#615,#616);
#618=PLANE('',#617);
#619=ORIENTED_EDGE('',*,*,#356,.T.);
#620=ORIENTED_EDGE('',*,*,#363,.T.);
#621=EDGE_LOOP('',(#619,#620));
#622=FACE_BOUND('',#621,.T.);
#623=ORIENTED_EDGE('',*,*,#609,.F.);
#624=ORIENTED_EDGE('',*,*,#400,.F.);
#625=ORIENTED_EDGE('',*,*,#201,.T.);
#626=ORIENTED_EDGE('',*,*,#490,.F.);
#627=EDGE_LOOP('',(#623,#624,#625,#626));
#628=FACE_BOUND('',#627,.T.);
#629=ADVANCED_FACE('',(#622,#628),#618,.F.);
#630=CARTESIAN_POINT('',(-36.076865481,-4.5,13.955603749));
#631=DIRECTION('',(-0.,1.,0.));
#632=DIRECTION('',(1.,0.,0.));
#633=AXIS2_PLACEMENT_3D('',#630,#631,#632);
#634=CYLINDRICAL_SURFACE('',#633,2.2);
#635=ORIENTED_EDGE('',*,*,#231,.F.);
#636=ORIENTED_EDGE('',*,*,#498,.T.);
#637=ORIENTED_EDGE('',*,*,#185,.F.);
#638=ORIENTED_EDGE('',*,*,#69,.T.);
#639=EDGE_LOOP('',(#635,#636,#637,#638));
#640=FACE_BOUND('',#639,.T.);
#641=ADVANCED_FACE('',(#640),#634,.T.);
#642=CARTESIAN_POINT('',(-36.076865481,-4.5,13.955603749));
#643=DIRECTION('',(-0.,1.,0.));
#644=DIRECTION('',(1.,0.,0.));
#645=AXIS2_PLACEMENT_3D('',#642,#643,#644);
#646=CYLINDRICAL_SURFACE('',#645,2.2);
#647=ORIENTED_EDGE('',*,*,#263,.F.);
#648=ORIENTED_EDGE('',*,*,#137,.T.);
#649=ORIENTED_EDGE('',*,*,#215,.F.);
#650=ORIENTED_EDGE('',*,*,#447,.T.);
#651=EDGE_LOOP('',(#647,#648,#649,#650));
#652=FACE_BOUND('',#651,.T.);
#653=ADVANCED_FACE('',(#652),#646,.T.);
#654=CLOSED_SHELL('',(#87,#148,#170,#219,#251,#283,#308,#333,#384,#451,#518,#539,#556,#573,#595,#613,#629,#641,#653));
#655=MANIFOLD_SOLID_BREP('alibrePartClosedBody',#654);
#656=COLOUR_RGB('',1.,0.501960814,0.);
#657=FILL_AREA_STYLE_COLOUR('',#656);
#658=FILL_AREA_STYLE('',(#657));
#659=SURFACE_STYLE_FILL_AREA(#658);
#660=SURFACE_SIDE_STYLE('',(#659));
#661=SURFACE_STYLE_USAGE(.BOTH.,#660);
#662=PRESENTATION_STYLE_ASSIGNMENT((#661));
#26=STYLED_ITEM('',(#662),#655);
#16=SHAPE_REPRESENTATION('TripodCrank',(#15),#10);
#17=ADVANCED_BREP_SHAPE_REPRESENTATION('TripodCrank',(#655),#10);
#670=SHAPE_REPRESENTATION_RELATIONSHIP('','',#16,#17);
#671=CARTESIAN_POINT('',(0.,0.,0.));
#672=DIRECTION('',(0.,0.,1.));
#673=DIRECTION('',(1.,0.,0.));
#674=AXIS2_PLACEMENT_3D('',#671,#672,#673);
#676=MAPPED_ITEM('',#675,#674);
#675=REPRESENTATION_MAP(#674,#16);
#677=APPLICATION_CONTEXT('Managed model based 3d engineering');
#678=APPLICATION_PROTOCOL_DEFINITION('international standard','ap242_managed_model_based_3d_engineering',2013,#677);
#679=PRODUCT_CONTEXT('',#677,'mechanical');
#680=PRODUCT_DEFINITION_CONTEXT('part definition',#677,'design');
#24=PRODUCT('TripodCrank','TripodCrank','',(#679));
#681=PRODUCT_RELATED_PRODUCT_CATEGORY('part','',(#24));
#682=PRODUCT_DEFINITION_FORMATION_WITH_SPECIFIED_SOURCE('','',#24,.NOT_KNOWN.);
#25=PRODUCT_DEFINITION('design','',#682,#680);
#23=PRODUCT_DEFINITION_SHAPE('','',#25);
#683=SHAPE_DEFINITION_REPRESENTATION(#23,#16);
#11=DRAUGHTING_MODEL('',(#676),#10);
#1=MECHANICAL_DESIGN_GEOMETRIC_PRESENTATION_REPRESENTATION('',(#26),#10);
ENDSEC;
END-ISO-10303-21;
